Lyrics2You
 Artist: A B C D E F G H I J K L M N O P Q R S T U V W X Y Z 0-9
  Menu

 
Download Zortam Mp3 Media Studio
 

 

Download Zortam Mp3 Media Studio for Windows - Free Mp3 Organizer, ID3 Tag Editor, Download Cover Art, Auto Mp3 Tagger


Download "Beatles - Stawberry Fields Forever" for FREE!!!

Songs    | >Download Now<    | Albums

Song:Stawberry Fields Forever
Album:1967-1970Genres:British Invasion
Year: Length:251 sec

Lyrics:

Strawberry Fields by Lennon/McCartney
Tablature by Chris Fuller (zneakers@comcast.net)

[Chords used]

A Asus4 Em7 F#m7
x0222x x0223x 02203x 242222

D F# Dmaj7/A C#7
xx0232 244322 x00222 x01212

E7 E7 E(4) Bm7
01020x x00434 xx6454 024232

Gm C# A6
355333 x4342x 242222

OPENING CHORUS (Standard Tuning)

A Dsus2/E Em7 Em F#mD F#
|-----------------------------------2--2-----2---2-----2--------|
|-2-2-3-2-------------3-------------2--3-----2---2-----2--------|
|-2---2-2-2------4-/2-0--0-2-/4-----2--2-----3---2-2---2---2----|
|-2---2-----2-/4------2---------2-2-2--0-----4---0---4-0-2-2----|
|-0---0---------------2---------2-2-4--------4-------------0----|
|---------------------0---------0-0-2----0-2-2------------------|

Let me take you..

Riff E Gm E7 Bm7 C# F#m A6 D E7 A F#m D E7 D A
|-10p9-----------------4--3--4--2-------2----2---2-2--------------2------2------|
|------10-8-/5---------5--3--3--3---2---2----2---2-3-----------2--3------3------|
|--------------7-6-----4--3--4--2---4---2----2---2-2--1--------2--2--1---2---2--|
|------------------7---6--5--0--4---3---4----2---0-0--0--2-----4--0--0---0---2--|
|-------------------------5-----2---4---4----4--------2--0-0---4-----2-------0--|
|-------------------------3-----0-------2----2--------0------4-2-----0----------|
Living is easy with...
Always know sometimes...
No one I think is...

CHORUS (Second Version):

A Dsus2/E Em7 Em C°7 D F#
|------------------------------------2-----2-----2---2-----2--------|
|-2-2-3-2-------------3--------------1-----3-----2---2-----2--------|
|-2---2-2-2------4-/2-0--0-2-/4------2-----2-----3---2-2---2---2----|
|-2---2-----2-/4------2---------2-2--1-----0-----4---0---4-0-2-2----|
|-0---0---------------2---------2-2--0-----------4-------------0----|
|---------------------0---------0-0----------0-2-2------------------|
Let me take you down.... Nothing is.. Forever..

CLOSING CHORUS:
E F#m
|-2-----2------2---|---2---0-------|
|-2-----2------2---|---2---0--2----|
|-2-2---2---2--2-2-|---2-2-1--2----|
|-0---4-0-2-2--0---|-4-0---2--4----|
|-----------0------|-------2--4----|
|------------------|-------0--2----|

Stawberry Fields Forever,
Straberry Feilds For-Ever..

(Lyrics)

Let me take you down, 'cause I'm going to Strawberry Fields.
Nothing is real and nothing to get hungabout.
Strawberry Fields forever.

Living is easy with eyes closed, misunderstanding all you see.
It's getting hard to be someone but it all works out, it doesn't matter much to me.
Let me take you down, 'cause I'm going to Strawberry Fields.
Nothing is real and nothing to get hungabout.
Strawberry Fields forever.

No one I think is in my tree, I mean it must be high or low.
That is you can't you know tune in but it's all right, that is I think it's not too bad.
Let me take you down, 'cause I'm going to Strawberry Fields.
Nothing is real and nothing to get hungabout.
Strawberry Fields forever.

Always, no sometimes, think it's me, but you know I know when it's a dream.
I think I know I mean a 'Yes' but it's all wrong, that is I think I disagree.
Let me take you down, 'cause I'm going to Strawberry Fields.
Nothing is real and nothing to get hungabout.
Strawberry Fields forever.
Strawberry Fields forever.


Download "Beatles - Stawberry Fields Forever" for FREE!!!



 


Visit http://www.zortam.com to manage your Mp3 files
Visit http://www.lyrics2you.com for more lyrics

Download Zortam Mp3 Media Studio for Windows - Free Mp3 Organizer, ID3 Tag Editor, Download Cover Art, Auto Mp3 Tagger

Copyright © 2016 Lyrics2You.com